ISO-10303-21;
HEADER;
FILE_DESCRIPTION (( 'STEP AP203' ),
    '1' );
FILE_NAME ('MHWP-25.4-1064.STEP',
    '2020-12-22T09:25:36',
    ( '' ),
    ( '' ),
    'SwSTEP 2.0',
    'SolidWorks 2020',
    '' );
FILE_SCHEMA (( 'CONFIG_CONTROL_DESIGN' ));
ENDSEC;

DATA;
#1 = CALENDAR_DATE ( 2020, 22, 12 ) ;
#2 = EDGE_CURVE ( 'NONE', #172, #86, #32, .T. ) ;
#3 = DATE_AND_TIME ( #167, #78 ) ;
#4 = COORDINATED_UNIVERSAL_TIME_OFFSET ( 8, 0, .AHEAD. ) ;
#5 = APPROVAL_ROLE ( '' ) ;
#6 = APPROVAL ( #7, 'UNSPECIFIED' ) ;
#7 = APPROVAL_STATUS ( 'not_yet_approved' ) ;
#8 = EDGE_CURVE ( 'NONE', #88, #62, #19, .T. ) ;
#9 = EDGE_LOOP ( 'NONE', ( #63, #105 ) ) ;
#10 = CC_DESIGN_PERSON_AND_ORGANIZATION_ASSIGNMENT ( #33, #46, ( #116 ) ) ;
#11 = ORIENTED_EDGE ( 'NONE', *, *, #140, .F. ) ;
#12 = PLANE ( 'NONE',  #55 ) ;
#13 = PERSON_AND_ORGANIZATION_ROLE ( 'design_owner' ) ;
#14 = CARTESIAN_POINT ( 'NONE',  ( -1.187907395172932594E-15, 0.000000000000000000, 0.000000000000000000 ) ) ;
#15 = DIRECTION ( 'NONE',  ( -1.000000000000000000, -0.000000000000000000, -0.000000000000000000 ) ) ;
#16 = PERSON_AND_ORGANIZATION ( #166, #60 ) ;
#17 = PRODUCT ( 'MHWP-25.4-1064', 'MHWP-25.4-1064', '', ( #70 ) ) ;
#18 = ADVANCED_FACE ( 'NONE', ( #163 ), #118, .T. ) ;
#19 = CIRCLE ( 'NONE', #82, 12.69999999999999929 ) ;
#20 = LOCAL_TIME ( 17, 25, 36.00000000000000000, #61 ) ;
#21 = PERSON_AND_ORGANIZATION_ROLE ( 'design_supplier' ) ;
#22 = DESIGN_CONTEXT ( 'detailed design', #126, 'design' ) ;
#23 = CARTESIAN_POINT ( 'NONE',  ( -1.187907395172932594E-15, 0.000000000000000000, 0.000000000000000000 ) ) ;
#24 = ADVANCED_FACE ( 'NONE', ( #165 ), #103, .T. ) ;
#25 = DIRECTION ( 'NONE',  ( -1.000000000000000000, -0.000000000000000000, -0.000000000000000000 ) ) ;
#26 = CC_DESIGN_DATE_AND_TIME_ASSIGNMENT ( #35, #129, ( #164 ) ) ;
#27 = DIRECTION ( 'NONE',  ( 0.000000000000000000, 0.000000000000000000, -1.000000000000000000 ) ) ;
#28 = CARTESIAN_POINT ( 'NONE',  ( 1.999999999999998224, 1.555301434917138433E-15, -12.69999999999999929 ) ) ;
#29 = DIRECTION ( 'NONE',  ( 0.000000000000000000, 0.000000000000000000, 1.000000000000000000 ) ) ;
#30 = AXIS2_PLACEMENT_3D ( 'NONE', #162, #25, #144 ) ;
#31 = COORDINATED_UNIVERSAL_TIME_OFFSET ( 8, 0, .AHEAD. ) ;
#32 = CIRCLE ( 'NONE', #75, 12.69999999999999929 ) ;
#33 = PERSON_AND_ORGANIZATION ( #166, #60 ) ;
#34 = LOCAL_TIME ( 17, 25, 36.00000000000000000, #31 ) ;
#35 = DATE_AND_TIME ( #47, #20 ) ;
#36 = AXIS2_PLACEMENT_3D ( 'NONE', #106, #65, #173 ) ;
#37 = ORIENTED_EDGE ( 'NONE', *, *, #123, .F. ) ;
#38 = DIRECTION ( 'NONE',  ( -1.000000000000000000, -0.000000000000000000, -0.000000000000000000 ) ) ;
#39 = FACE_OUTER_BOUND ( 'NONE', #87, .T. ) ;
#40 = ADVANCED_FACE ( 'NONE', ( #39 ), #41, .F. ) ;
#41 = PLANE ( 'NONE',  #120 ) ;
#42 = CARTESIAN_POINT ( 'NONE',  ( 0.000000000000000000, 1.555301434917138433E-15, -12.69999999999999929 ) ) ;
#43 = APPROVAL_STATUS ( 'not_yet_approved' ) ;
#44 = PERSON_AND_ORGANIZATION ( #166, #60 ) ;
#45 = DATE_AND_TIME ( #56, #34 ) ;
#46 = PERSON_AND_ORGANIZATION_ROLE ( 'creator' ) ;
#47 = CALENDAR_DATE ( 2020, 22, 12 ) ;
#48 = CC_DESIGN_APPROVAL ( #6, ( #164 ) ) ;
#49 = DIRECTION ( 'NONE',  ( 0.000000000000000000, 0.000000000000000000, 1.000000000000000000 ) ) ;
#50 = CARTESIAN_POINT ( 'NONE',  ( -5.939536975864662969E-16, 12.69999999999999929, 0.000000000000000000 ) ) ;
#51 = CARTESIAN_POINT ( 'NONE',  ( 1.999999999999999112, 12.69999999999999929, 0.000000000000000000 ) ) ;
#52 = ORIENTED_EDGE ( 'NONE', *, *, #8, .T. ) ;
#53 = PRODUCT_RELATED_PRODUCT_CATEGORY ( 'detail', '', ( #17 ) ) ;
#54 = APPROVAL ( #122, 'UNSPECIFIED' ) ;
#55 = AXIS2_PLACEMENT_3D ( 'NONE', #51, #66, #121 ) ;
#56 = CALENDAR_DATE ( 2020, 22, 12 ) ;
#57 = APPROVAL ( #43, 'UNSPECIFIED' ) ;
#58 = LINE ( 'NONE', #42, #101 ) ;
#59 = APPROVAL_PERSON_ORGANIZATION ( #157, #6, #168 ) ;
#60 = ORGANIZATION ( 'UNSPECIFIED', 'UNSPECIFIED', '' ) ;
#61 = COORDINATED_UNIVERSAL_TIME_OFFSET ( 8, 0, .AHEAD. ) ;
#62 = VERTEX_POINT ( 'NONE', #28 ) ;
#63 = ORIENTED_EDGE ( 'NONE', *, *, #8, .F. ) ;
#64 = EDGE_LOOP ( 'NONE', ( #52, #146, #150, #37 ) ) ;
#65 = DIRECTION ( 'NONE',  ( -1.000000000000000000, -0.000000000000000000, -0.000000000000000000 ) ) ;
#66 = DIRECTION ( 'NONE',  ( -1.000000000000000000, 0.000000000000000000, -0.000000000000000000 ) ) ;
#67 = APPLICATION_PROTOCOL_DEFINITION ( 'international standard', 'config_control_design', 1994, #126 ) ;
#68 = PERSON_AND_ORGANIZATION_ROLE ( 'creator' ) ;
#69 = CC_DESIGN_SECURITY_CLASSIFICATION ( #164, ( #116 ) ) ;
#70 = MECHANICAL_CONTEXT ( 'NONE', #95, 'mechanical' ) ;
#71 = DATE_AND_TIME ( #1, #156 ) ;
#72 = SHAPE_DEFINITION_REPRESENTATION ( #160, #128 ) ;
#73 = SECURITY_CLASSIFICATION_LEVEL ( 'unclassified' ) ;
#74 = DIRECTION ( 'NONE',  ( -1.000000000000000000, -0.000000000000000000, -0.000000000000000000 ) ) ;
#75 = AXIS2_PLACEMENT_3D ( 'NONE', #23, #74, #132 ) ;
#76 = CARTESIAN_POINT ( 'NONE',  ( -1.187907395172932594E-15, 1.555301434917138433E-15, -12.69999999999999929 ) ) ;
#77 = AXIS2_PLACEMENT_3D ( 'NONE', #14, #15, #80 ) ;
#78 = LOCAL_TIME ( 17, 25, 36.00000000000000000, #4 ) ;
#79 = DIRECTION ( 'NONE',  ( -1.000000000000000000, -0.000000000000000000, -0.000000000000000000 ) ) ;
#80 = DIRECTION ( 'NONE',  ( 0.000000000000000000, 0.000000000000000000, 1.000000000000000000 ) ) ;
#81 = PERSON_AND_ORGANIZATION ( #166, #60 ) ;
#82 = AXIS2_PLACEMENT_3D ( 'NONE', #107, #90, #85 ) ;
#83 = PERSON_AND_ORGANIZATION ( #166, #60 ) ;
#84 = PERSON_AND_ORGANIZATION_ROLE ( 'classification_officer' ) ;
#85 = DIRECTION ( 'NONE',  ( 0.000000000000000000, 0.000000000000000000, 1.000000000000000000 ) ) ;
#86 = VERTEX_POINT ( 'NONE', #76 ) ;
#87 = EDGE_LOOP ( 'NONE', ( #134, #119 ) ) ;
#88 = VERTEX_POINT ( 'NONE', #135 ) ;
#89 = CIRCLE ( 'NONE', #36, 12.69999999999999929 ) ;
#90 = DIRECTION ( 'NONE',  ( -1.000000000000000000, -0.000000000000000000, -0.000000000000000000 ) ) ;
#91 =( LENGTH_UNIT ( ) NAMED_UNIT ( * ) SI_UNIT ( .MILLI., .METRE. ) );
#92 = APPROVAL_PERSON_ORGANIZATION ( #141, #57, #152 ) ;
#93 = CC_DESIGN_PERSON_AND_ORGANIZATION_ASSIGNMENT ( #139, #13, ( #17 ) ) ;
#94 =( NAMED_UNIT ( * ) PLANE_ANGLE_UNIT ( ) SI_UNIT ( $, .RADIAN. ) );
#95 = APPLICATION_CONTEXT ( 'configuration controlled 3d designs of mechanical parts and assemblies' ) ;
#96 = APPROVAL_DATE_TIME ( #45, #57 ) ;
#97 = DIRECTION ( 'NONE',  ( -1.000000000000000000, -0.000000000000000000, -0.000000000000000000 ) ) ;
#98 = EDGE_CURVE ( 'NONE', #62, #88, #89, .T. ) ;
#99 = VECTOR ( 'NONE', #79, 1000.000000000000000 ) ;
#100 = AXIS2_PLACEMENT_3D ( 'NONE', #124, #29, #110 ) ;
#101 = VECTOR ( 'NONE', #97, 1000.000000000000000 ) ;
#102 = ORIENTED_EDGE ( 'NONE', *, *, #123, .T. ) ;
#103 = CYLINDRICAL_SURFACE ( 'NONE', #30, 12.69999999999999929 ) ;
#104 = ADVANCED_FACE ( 'NONE', ( #136 ), #12, .F. ) ;
#105 = ORIENTED_EDGE ( 'NONE', *, *, #98, .F. ) ;
#106 = CARTESIAN_POINT ( 'NONE',  ( 1.999999999999998224, 0.000000000000000000, 0.000000000000000000 ) ) ;
#107 = CARTESIAN_POINT ( 'NONE',  ( 1.999999999999998224, 0.000000000000000000, 0.000000000000000000 ) ) ;
#108 = DATE_TIME_ROLE ( 'creation_date' ) ;
#109 =( NAMED_UNIT ( * ) SI_UNIT ( $, .STERADIAN. ) SOLID_ANGLE_UNIT ( ) );
#110 = DIRECTION ( 'NONE',  ( 1.000000000000000000, 0.000000000000000000, 0.000000000000000000 ) ) ;
#111 = COORDINATED_UNIVERSAL_TIME_OFFSET ( 8, 0, .AHEAD. ) ;
#112 = CARTESIAN_POINT ( 'NONE',  ( 0.000000000000000000, 0.000000000000000000, 12.69999999999999929 ) ) ;
#113 = DATE_AND_TIME ( #127, #125 ) ;
#114 = PRODUCT_DEFINITION ( 'UNKNOWN', '', #116, #22 ) ;
#115 = MANIFOLD_SOLID_BREP ( 'Ðý×', #158 ) ;
#116 = PRODUCT_DEFINITION_FORMATION_WITH_SPECIFIED_SOURCE ( 'ANY', '', #17, .NOT_KNOWN. ) ;
#117 = UNCERTAINTY_MEASURE_WITH_UNIT (LENGTH_MEASURE( 1.000000000000000082E-05 ), #91, 'distance_accuracy_value', 'NONE');
#118 = CYLINDRICAL_SURFACE ( 'NONE', #133, 12.69999999999999929 ) ;
#119 = ORIENTED_EDGE ( 'NONE', *, *, #140, .T. ) ;
#120 = AXIS2_PLACEMENT_3D ( 'NONE', #50, #147, #27 ) ;
#121 = DIRECTION ( 'NONE',  ( -0.000000000000000000, 0.000000000000000000, 1.000000000000000000 ) ) ;
#122 = APPROVAL_STATUS ( 'not_yet_approved' ) ;
#123 = EDGE_CURVE ( 'NONE', #88, #172, #174, .T. ) ;
#124 = CARTESIAN_POINT ( 'NONE',  ( 0.000000000000000000, 0.000000000000000000, 0.000000000000000000 ) ) ;
#125 = LOCAL_TIME ( 17, 25, 36.00000000000000000, #143 ) ;
#126 = APPLICATION_CONTEXT ( 'configuration controlled 3d designs of mechanical parts and assemblies' ) ;
#127 = CALENDAR_DATE ( 2020, 22, 12 ) ;
#128 = ADVANCED_BREP_SHAPE_REPRESENTATION ( 'MHWP-25.4-1064', ( #115, #100 ), #170 ) ;
#129 = DATE_TIME_ROLE ( 'classification_date' ) ;
#130 = CC_DESIGN_PERSON_AND_ORGANIZATION_ASSIGNMENT ( #83, #84, ( #164 ) ) ;
#131 = ORIENTED_EDGE ( 'NONE', *, *, #169, .F. ) ;
#132 = DIRECTION ( 'NONE',  ( 0.000000000000000000, 0.000000000000000000, 1.000000000000000000 ) ) ;
#133 = AXIS2_PLACEMENT_3D ( 'NONE', #171, #38, #49 ) ;
#134 = ORIENTED_EDGE ( 'NONE', *, *, #2, .T. ) ;
#135 = CARTESIAN_POINT ( 'NONE',  ( 1.999999999999998224, 0.000000000000000000, 12.69999999999999929 ) ) ;
#136 = FACE_OUTER_BOUND ( 'NONE', #9, .T. ) ;
#137 = APPROVAL_PERSON_ORGANIZATION ( #44, #54, #5 ) ;
#138 = APPLICATION_PROTOCOL_DEFINITION ( 'international standard', 'config_control_design', 1994, #95 ) ;
#139 = PERSON_AND_ORGANIZATION ( #166, #60 ) ;
#140 = EDGE_CURVE ( 'NONE', #86, #172, #155, .T. ) ;
#141 = PERSON_AND_ORGANIZATION ( #166, #60 ) ;
#142 = APPROVAL_DATE_TIME ( #113, #6 ) ;
#143 = COORDINATED_UNIVERSAL_TIME_OFFSET ( 8, 0, .AHEAD. ) ;
#144 = DIRECTION ( 'NONE',  ( 0.000000000000000000, 0.000000000000000000, 1.000000000000000000 ) ) ;
#145 = ORIENTED_EDGE ( 'NONE', *, *, #98, .T. ) ;
#146 = ORIENTED_EDGE ( 'NONE', *, *, #169, .T. ) ;
#147 = DIRECTION ( 'NONE',  ( 1.000000000000000000, 0.000000000000000000, 0.000000000000000000 ) ) ;
#148 = CC_DESIGN_APPROVAL ( #57, ( #116 ) ) ;
#149 = CC_DESIGN_PERSON_AND_ORGANIZATION_ASSIGNMENT ( #81, #68, ( #114 ) ) ;
#150 = ORIENTED_EDGE ( 'NONE', *, *, #2, .F. ) ;
#151 = CC_DESIGN_PERSON_AND_ORGANIZATION_ASSIGNMENT ( #16, #21, ( #116 ) ) ;
#152 = APPROVAL_ROLE ( '' ) ;
#153 = CC_DESIGN_DATE_AND_TIME_ASSIGNMENT ( #3, #108, ( #114 ) ) ;
#154 = CARTESIAN_POINT ( 'NONE',  ( -1.187907395172932594E-15, 0.000000000000000000, 12.69999999999999929 ) ) ;
#155 = CIRCLE ( 'NONE', #77, 12.69999999999999929 ) ;
#156 = LOCAL_TIME ( 17, 25, 36.00000000000000000, #111 ) ;
#157 = PERSON_AND_ORGANIZATION ( #166, #60 ) ;
#158 = CLOSED_SHELL ( 'NONE', ( #24, #18, #104, #40 ) ) ;
#159 = CC_DESIGN_APPROVAL ( #54, ( #114 ) ) ;
#160 = PRODUCT_DEFINITION_SHAPE ( 'NONE', 'NONE',  #114 ) ;
#161 = EDGE_LOOP ( 'NONE', ( #131, #145, #102, #11 ) ) ;
#162 = CARTESIAN_POINT ( 'NONE',  ( 0.000000000000000000, 0.000000000000000000, 0.000000000000000000 ) ) ;
#163 = FACE_OUTER_BOUND ( 'NONE', #161, .T. ) ;
#164 = SECURITY_CLASSIFICATION ( '', '', #73 ) ;
#165 = FACE_OUTER_BOUND ( 'NONE', #64, .T. ) ;
#166 = PERSON ( 'UNSPECIFIED', 'UNSPECIFIED', 'UNSPECIFIED', ('UNSPECIFIED'), ('UNSPECIFIED'), ('UNSPECIFIED') ) ;
#167 = CALENDAR_DATE ( 2020, 22, 12 ) ;
#168 = APPROVAL_ROLE ( '' ) ;
#169 = EDGE_CURVE ( 'NONE', #62, #86, #58, .T. ) ;
#170 =( GEOMETRIC_REPRESENTATION_CONTEXT ( 3 ) GLOBAL_UNCERTAINTY_ASSIGNED_CONTEXT ( ( #117 ) ) GLOBAL_UNIT_ASSIGNED_CONTEXT ( ( #91, #94, #109 ) ) REPRESENTATION_CONTEXT ( 'NONE', 'WORKASPACE' ) );
#171 = CARTESIAN_POINT ( 'NONE',  ( 0.000000000000000000, 0.000000000000000000, 0.000000000000000000 ) ) ;
#172 = VERTEX_POINT ( 'NONE', #154 ) ;
#173 = DIRECTION ( 'NONE',  ( 0.000000000000000000, 0.000000000000000000, 1.000000000000000000 ) ) ;
#174 = LINE ( 'NONE', #112, #99 ) ;
#175 = APPROVAL_DATE_TIME ( #71, #54 ) ;
ENDSEC;
END-ISO-10303-21;
